The Johnny Winter Story

She Likes To Boogie

Hey Where is Your Brother

 

Guitar Tabs and Lyrics

Johnny Winter - She likes to boogie real low -

Intro:
------------------------------------------------------------------------------------------5-
---------6-----------------9-8-6-------------------------------------------------------6--6-
-----5-7---7---------------8-7-5-7---------7b-7b---------------------------------------5--5-
---7---------------5h7-------------------------------6-8-8b-8b-8b-6------8b-8b-8b-6---------
-8-----------8--..-----8-----------8---..----------8----------------8--8------------8-------
--------------------------------------------------------------------------------------------
                                                                  1!  (1)
---------------------------------5--
------------------------------6--6--
-8v(4)-5----------------------5--5--
---------8-6-----8v-8v-8v-6---------
-------------8-6------------8-------
------------------------------------

We went to a party,
But all we did was rock
I want a body
She didn't blow her top
               1
And then she..
                                     1! start and 1
She likes to boogie real low, and you

I'm taking my baby
Out to the picture show
But my baby 
Don't want to go there no more
She gets..

She likes to boogie real low, and you

Solo.

repeat Intro.

------------------------8-8v-6b-------------------------------------------------------------
---------6v~~~~~------6---------9-6----6-8b--10b'-8b'-6--5h6-----6-------6--6---------------
-----5-7----------7p5----------------7-----------------------7-5----5-7b-----7-5------------
---7-----------------------------------------------------------------------------9-8-6---8b-
-8-------------------------------------------------------------------------------------8----
--------------------------------------------------------------------------------------------

--------------------------------------------------------------------------------------------
------------6-----------------------6-----8-6----9-6h8-p6---6-------6----------6---8b--6h8p6
--------------5h7p5-----(2)-------5---8-5-----5-----------7----5-8b---8-5----5---5----------
--6-----6-----------6--------6-8b-----------------------------------------8b----------------
-8-8--8---8-----------8---------------------------------------------------------------------
--------------------------------------------------------------------------------------------

-------------6b-------------8b--------------------------------------------------------------
---6--/--6-------8b---6-6------8b-6--------------------------4---4-4-4-----------6----------
-7----/----8--------------8--------------------------------5---5-------(2)-5-5h7---5h7-5----
------------------------------------10\8-\6----8-6-8b-6v---------------------------------8-6
--------------------------------------------8-----------------------------------------------
--------------------------------------------------------------------------------------------

--------------------------------4-5-6-4b----------------------------------------------------
----------6-8b-6-6h8p6-----6-6v----------6---------------------------6---------6---8b-6h8p6-
----5-5h7--------------7-5-----------------5-----------------------7---8-5-8b----5----------
---------------------------------------------8-6---8-6------6---8b--------------------------
-8-----------------------------------------------8-----8--8---8-----------------------------
--------------------------------------------------------------------------------------------

-------------------------------------8------------------------------------------------------
---6---8v-9-6-8p6-----6------9-10-11---11br-9-9-----------6-8b-rp6-6-6-(2)-8b-8b-6-6-----8b-
-7---7------------7-5---8bv-----------------------------5----------------------------7-5----
--------------------------------------------------6-8-9-------------------------------------
------------------------------------------------8-------------------------------------------
--------------------------------------------------------------------------------------------

----------------10b-----8-----------------------13----13------13-------------------13-------
-8b-8b-6-6---6-------11b-8b'r------10b-10b--/13----13----16b-----16-13----------13----13-16b
-----------7-----------------10----------------------------------------15b--15b-------------
--------------------------------12----------------------------------------------------------
--------------------------------------------------------------------------------------------
--------------------------------------------------------------------------------------------

---------------------------------------13-15p13-------------------13--------------13-----13-
-16-13---------13-16-13-16b-16b'-13b'-----------16-13-16b--13-16b----16-13-----13----16b----
-------15b-15b-------------------------------------------------------------15b--------------
--------------------------------------------------------------------------------------------
--------------------------------------------------------------------------------------------
--------------------------------------------------------------------------------------------

-(---13)-------------13-13-----------13----------------13-----13-----13---------------------
-(16b--)-repeat--16b-------16-13-16b----16-13-16b--16b----16b----16b----16-13---------------
------------------------------------------------------------------------------15br-13----13v
--------------------------------------------------------------------------------------15----
--------------------------------------------------------------------------------------------
--------------------------------------------------------------------------------------------

-----------13-------15-13----15-13h15p13----13-------13-------------------------------------
--------13----16-13-------13-------------16-----16b-----16-13-------------------------------
-13-15b-------------------------------------------------------15b-rp13----15b-13-15----13---
-----------------------------------------------------------------------15-----------15----15
--------------------------------------------------------------------------------------------
--------------------------------------------------------------------------------------------

-------------------13--------------13-------------------------------------------------------
----------------------16-13-----13----13-16b-16v--------------------------------------------
---------------15b----------15b------------------------------------------13-15-15b-15b-15-13
-15p13--------------------------------------------15h17p15----15-15v--15--------------------
-------15--------------------------------------------------17-------------------------------
----------16--------------------------------------------------------------------------------

--------------------------------------------------------------------------------------------
--------------------------------------------------------------------------------------------
----------------------------------13b-10h12p10----10---------10-8---------10-8--------------
-15--15p13-------------------------------------12----12-13b-------10-8h10------10---8b------
-----------15p13-----------------------------------------------------------------11----11-8
-----------------16p13-16-16p13------------------------------------------------------------

-------
-------
-------
-------
-11----
----8--

Now tell me baby
What are you going to do?
Yes, I love you
Because you're nice and true
And you get..
She likes to boogie real low, and

But I love my baby
I love her before myself
Wickness seader
I need it for no one else
You know she..

She likes to boogie real low, and you
She likes to boogie real low, and you
She likes to boogie real low, and you
Promote this website using Google+, Facebook or Twitter

Contact Webmaster , Copyright © 1995-2016 - All material on this page is copyrighted by their respective owners, redistribution is strictly forbidden

Last Modified: 04-Feb-2016 10:49