The Johnny Winter Story

Rock & Roll Hoochie Coo

Johnny Winter And

 

Guitar Tabs and Lyrics

 

Author/Artist: Johnny Winter 
Title: Rock and Roll Hoochie Koo
Transcribed by: Mustang@fender4ever

      h - hammer on 
      p - pull off 
      b - bend string up
      r - release bend
      / - slide up

INTRO: also the chorus

e||-------------|--------------|---------------------------|-------------|
B||-------------|--------------|---------------------------|-------------|
G||-------------|--------------|-------------------5-------|-------------|
D||-------------|--------------|--------------5h7----7-5-7-|-------------|
A||-x--3--5--3--|--x--5--7--5--|--7--7--3/5h7--------------|-x--3--5--3--|
E||-x--1--3--1--|--x--3--3--3--|--5--5---------------------|-x--1--1--1--|
                                                                              

------------|----------------|--------------||------------------------------||
-5----------|----------------|--------------||------------------------------||
-5--4--6----|----------------|--------------||*-------3/4---3/5--3/4--3/4--*||
-5--5--7----|----------------|--------------||*-------4/5---4/5--4/5--4/5--*||
-3--5--7----|--x---x-x-x--x--|--x-x-x-x--x--||------------------------------||
----3/-5----|--x---x-x-x--x--|--x-x-x-x--x--||-3/5-0------------------------||

the song climbs up,then down, using A C D bar chords
at the end use one of these licks

-------------------|
-------------------|
-------------------|
--7-7p5---------7--|
--------7-6-5------|
--------------8----|

--5-5p3---------3--|
--------5-4-3------|
--------------3----|
-------------------|
-------------------|
-------------------|
  
Verse1:
A                              C          D    C  A          
I couldn't stop moving when it first took hold 
It was a warm spring night in the ol' town hall 
There was a group called The Jokers, they were layin' it down 
Doncha know I'm never gonna lose that funky sound 

Chorus:


Rock and roll, hoochie koo 
Lawdy mama light my fuse 
Rock and roll, hoochie koo 
Truck on out and spread the news


The skeeters start buzzing 'bout this time o' year 
I'm goin' round back, she said she'd meet me there 
We were rollin' in the grass that grows behind the barn 
When my ears started ringin' like a fire alarm

(Chorus)


Hope ya'll know what I'm talkin' about 
The way they wiggle that thing, it really knocks me out 
I'm gettin' high all the time, hope ya'll are too 
Well come-on a little closer, gonna do it to you

(Chorus)


That I'm tired of payin' dues 
Done said goodbye to all my blues 
Lawdy mama light my fuse
 
Promote this website using Google+, Facebook or Twitter

Contact Webmaster , Copyright © 1995-2016 - All material on this page is copyrighted by their respective owners, redistribution is strictly forbidden

Last Modified: 04-Feb-2016 10:49