The Johnny Winter Story

Evil On My Mind

Third Degree

 

Guitar Tabs and Lyrics

 

From his album 3rd Degree

tabbed by Kay-Uwe Graw (kugraw@informatik.uni-rostock.de)

There is also a second guitar which plays an additional rhythm pattern. The
Tab is only for the bottleneck lead guitar. As you can see on the album cover
he played a National on this tune.

Playing Notes

/ - slide up
\ - slide down
h - hammer on
p - pull off
s - slide beetween notes
~ - vibrato

played in Open G (D G D G B D from low to high)

Intro:
D-|-0--3--/5-5-5-5--/5-/5---/5-/5-/5-/3---------------------------------------|
B-|-------------------------------------3-\1----------------------------------|
G-|------------------------------------------/3~---0-/5-s-3-s-5-0-----------0-|
D-|---------------------------------------------------------------0-/3-0-/3---|
G-|---------------------------------------------------------------------------|
D-|---------------------------------------------------------------------------|



|-0-/3-0--/5-5-5--\3-/5-5-/3---/5--\3------------------------------/12-\10--|
|----------------------------3--------3-\1----------------------------------|
|------------------------------------------/3~---0-/5-s-3-s-5-0-------------|
|---------------------------------------------------------------0-----------|
|---------------------------------------------------------------------------|
|---------------------------------------------------------------------------|



|------------------------------------------------------------/3p0-/3p0-/3p0-|
|-/12-----------------------------------------------------/3----------------|
|----/12--------------------0-----------------------------------------------|
|--------12\--0-/3~-/3-0-/3---5s3p0--/3/3-0-/3-0----------------------------|
|------------------------------------------------/5-/3-0--------------------|
|---------------------------------------------------------------------------|



|------------------/5--0-/3---0--/5---5--5--5-/5-/5\-0--3-/5-\3-------------|
|-\1-----\1-----------------------------------------------------3-\1--------|
|----/3-----/3--0-----------------------------------------------------/3~---|
|---------------------------------------------------------------------------|
|---------------------------------------------------------------------------|
|---------------------------------------------------------------------------|
                         When I think about my baby  I got evil on my mind


|-/12-12-12-12-11-10----------0-/3---0--/5---5--5--5---/5-/5\---0-3--/5-\3--|
|-------------------/12-----------------------------------------------------|
|----------------------/12--------------------------------------------------|
|-------------------------12\-----------------------------------------------|
|---------------------------------------------------------------------------|
|---------------------------------------------------------------------------|
                                when I think about that woman   I got evil


|---------------------------------------------------------------------------|
|-3--\1---------------------------------------------------------------------|
|--------/3~--0-5-s-3-s-5-0-----------0------------------\5------------\5---|
|---------------------------0-/3-0-/3---0-5s3-0-----/7--------5s3-0-/7------|
|---------------------------------------------------------------------------|
|---------------------------------------------------------------------------|
  on my mind                              It brings teardrops to my eyes


|-----------------------------------------------/12-12-12-12-\10----12s10---|
|---------------------------------------------------------------/12---------|
|---------/5-/3---0-----/5----/3---0----------------------------------------|
|-5-s-3-0-------------------------------------------------------------------|
|---------------------------------------------------------------------------|
|---------------------------------------------------------------------------|
             and sends chills out down my spine


|-----------------------------------------------------12--12-12----12-------|
|-/12-----/3-0-----/3-----/3--/3---/3-/3------------------------------------|
|-----12\-/3-0-----/3-----/3--/3---/3-/3--/5--/3--0-------------------------|
|---------/3-0-----/3-----/3--/3---/3-/3------------------------------------|
|---------------------------------------------------------------------------|
|---------------------------------------------------------------------------|
          It sends chills out down my spine           when I watch this


|-\10----------3-2-3--------------------------------------------------------|
|----/12-------------\1-----------------------------------------------------|
|-------12--------------/3-0----0--------0----0--------0---/2--0--/3--------|
|----------------------------/3--------0---/3----/3------------------0h/3p0-|
|---------------------------------0-/3--------------------------------------|
|---------------------------------------------------------------------------|
  woman walk                                     sends chills out down my


|--------------------------------------12s10--------------------------------|
|-------------------------------------------/12------------------\1---------|
|---------------------/3----0-----0-------------12-----------0------/3-0----|
|---/5----0-h-/3-p-0----------/3-------------------------0h3-------------0--|
|---------------------------------------------------0h/3--------------------|
|---------------------------------------------------------------------------|
  spine   when I watch that woman walk


|---------------------------------------------------------------------------|
|---------------------------------------------------------------------------|
|---------------------------------------------------------------------------|
|-----0---/7---------------0------------------0-/5------0---/3--------------|
|-0h3------------0--h--3---------/7----0-h-3--------0h3-------------/3------|
|---------------------------------------------------------------------------|
  and she smiles right into your face               and lies ev'ry times


                                                    solo:
|----------------------------------------------------------/12-12-12-12-\10-|
|---------------------------------------------------------------------------|
|-----------------------------------------------0---------------------------|
|----------------0--5s3p0----------------0--/5----/3--0---------------------|
|-/3---0-----0h3-----------/3-/3--0--0h3------------------------------------|
|---------------------------------------------------------------------------|
  she talks


|--------------/12-12-12-12-\10--------------/12-12-12-12-\10---------------|
|-/12---------------------------/12---------------------------/12-----------|
|-----/12---------------------------/12---------------------------/12-------|
|---------12\---------------------------12\---------------------------\12---|
|---------------------------------------------------------------------------|
|---------------------------------------------------------------------------|



|-0--/5--\3---------------/5-/5--/5-/5-5s3p0--/3-/3-0--/5--\3---------------|
|-----------\1-------------------------------------------------3-\1---------|
|--------------/3------0--------------------------------------------/3--0---|
|-----------------0-/3----------------------------------------------------0-|
|---------------------------------------------------------------------------|
|---------------------------------------------------------------------------|



|-0-/3-0--------------------------------------------------------------------|
|--------\1-----------------------------------------------------------------|
|-----------/3--------0-/3-0--/5--0--------0--/5-/5-0-------0--/5-/5-0----0-|
|--------------3--/5-----------------3--/5-------------0-/3------------/3---|
|---------------------------------------------------------------------------|
|---------------------------------------------------------------------------|



|----/3p0-/3--------------------------------/12-12-11-10-----0-/12-12-11-12-|
|------------\1-----------------------------------------/12-----------------|
|---------------/3-0-------------0--/12--0----------------------------------|
|-0-------------------0-/3-0--/5--------------------------------------------|
|---------------------------------------------------------------------------|
|---------------------------------------------------------------------------|
                                     look out


|------0-/12-12-\10----------------------------------------------3----------|
|-/12--------------/12-----------/12-12--------------/12------/3---\1-------|
|---------------------/12-----12--------/12-------12-----12-----------/3--0-|
|--------------------------/12--------------12-/12--------------------------|
|---------------------------------------------------------------------------|
|---------------------------------------------------------------------------|



|-------------------------------------------------------------------/5------|
|---------------------------------------------------------\1----------------|
|--------0---/5-5-/6-6-/7s3p0--/3--0-------0--5s3s5--0-------/3--0----------|
|-0--/3-------------------------------0-/3-------------0--------------------|
|---------------------------------------------------------------------------|
|---------------------------------------------------------------------------|



|-0-/3-0--/5-5-5--0-/3------------------/5-5-5--0-/3------------------------|
|----------------------3-\1--------------------------3-\1-------------------|
|---------------------------/3--/5--\3--------------------/3--/5--/3--0-----|
|---------------------------------------------------------------------------|
|---------------------------------------------------------------------------|
|---------------------------------------------------------------------------|



|--------------------------------------------------/12-12-12-12-12-12-12-12-|
|--------------------------------------------------/12-12-12-12-12-12-12-12-|
|-----0--/5-\3--0------------------0---0---/3---0--/12-12-12-12-12-12-12-12-|
|-/5---------------/5-\3---------------0---/3---0--/12-12-12-12-12-12-12-12-|
|------------------------/5-\3--0------0---/3---0---------------------------|
|---------------------------------------------------------------------------|
                                       they say your enemies can't hurt you


|-\11-11-11-11-11-11-11-11---/12-12-12-12--12--12\---/3-3-3--/3--/3---------|
|-\11-11-11-11-11-11-11-11---/12-12-12-12--12--12\---/3-3-3--/3--/3---------|
|-\11-11-11-11-11-11-11-11---/12-12-12-12--12--12\---/3-3-3--/3--/3---------|
|-\11-11-11-11-11-11-11-11---/12-12-12-12--12--12\--------------------------|
|---------------------------------------------------------------------------|
|---------------------------------------------------------------------------|
          if you keep track on your friends                  they say your


|-/5---5---5---/5---/5----0--/3-/5----\3------------------------------------|
|-------------------------------------------0-\1----------------------------|
|--------------------------------------------------/3-----0-----------------|
|-----------------------------------------------------------/3p0------------|
|-----------------------------------------------------------------/3-/3-0---|
|---------------------------------------------------------------------------|
  enemies can't hurt you  if you keep track on your friend


|---------------------------------------------------------------------------|
|---------------------------------------------------------------------------|
|---------------------------------------------------------------------------|
|-------0--/5--------0--/7----------0--/7----------0-/5--------0---/3--0----|
|-0-h-3-------0-h-3----------0-h-3-----------0-h-3------0-h-3---------------|
|---------------------------------------------------------------------------|
              I say you know what your woman            that's the one who


|-----------------/12-12-\10-----\10----------------/5~---------------------|
|----------------------------/12----/12-------------------------------------|
|--------------0------------------------12\--0--/3--------------------------|
|---------------------------------------------------------------------------|
|-/5----\3--0---------------------------------------------------------------|
|---------------------------------------------------------------------------|
  threw you in!
Promote this website using Google+, Facebook or Twitter

Contact Webmaster , Copyright © 1995-2016 - All material on this page is copyrighted by their respective owners, redistribution is strictly forbidden

Last Modified: 04-Feb-2016 10:49