The Johnny Winter Story

Divin' Duck

White Hot and Blue

 

Guitar Tabs and Lyrics

Divin' Duck
-----------
This is the riff from "Divin' Duck" off the "White, Hot and Blue" album (and
various compilations).
 
I have transcribed it using standard tuning (EADGBE) although I believe
Johnny tunes down a whole tone (DGCFAD).

I am using (H) to indicate a hammer on.

Have fun!

Chris Jones 

Intro
1st---------------------------------------------------------
2nd---------------------------------------------------------
3rd---------------------------------------------------------
4th--8--11-----------------------------H--6-----------------
5th---------8--11--6--8--4--6-------7--8--------------------
6th----------------------------6----------------------------

Main Riff
1st----------------------------------------------------------
2nd----------------------------------------------------------
3rd---------------------------------------------------------- 
4th--------8-----6-------------------8-----6-----------------  
5th-----------8-----8--6----------------8-----8--6-----------
6th--6--6-----------------9----6--6-----------------9--------

1st----------------------------------------------------------
2nd----------------------------------------------------------
3rd---------------------------------------------------------- 
4th--------8-----6-------------------8-----6-----------------  
5th-----------8-----8--6----------------8-----8--6-----------
6th--6--6-----------------9----6--6-----------------9--------

1st----------------------------------------------------------
2nd----------------------------------------------------------
3rd--------8-----6-------------------8-----6-----------------
4th-----------8-----8--6----------------8-----8--6-----------
5th--6--6-----------------8----6--6-----------------6--------
6th----------------------------------------------------------

1st-----------------------------------------------------------
2nd-----------------------------------------------------------
3rd----------------------------------------------------------- 
4th--------8-----6-------------------8-----6------------------  
5th-----------8-----8--6----------------8-----8---6-----------
6th--6--6-----------------9----6--6------------------9--------

1st-----------------------------------------------------------
2nd-----------------------------------------------------------
3rd---------10---------10-----10------------------------------
4th-----10---------10---------------8--11--------------------- 
5th--8----------8----------8---------------8--11--6--8--4--6--
6th-----------------------------------------------------------

1st-----------------------------------------------------------
2nd-----------------------------------------------------------
3rd-----------------------------------------------------------
4th--------8-----6-----------------H--6-----------------------
5th-----------8-----8---6-------7--8--------------------------
6th--6--6------------------9----------------------------------
 




Promote this website using Google+, Facebook or Twitter

Contact Webmaster , Copyright © 1995-2016 - All material on this page is copyrighted by their respective owners, redistribution is strictly forbidden

Last Modified: 04-Feb-2016 10:49